Carlton Fist

(/) Slide Up  (\) Slide Down  (h) Hammer On  (p) Pull Off  (b) Bend (r) Release (v) Vibrato

E|--------|-----------|-------|--
B|--------|-----------|-------|--
G|--------|-----------|-------|--
D|--------|-----------|-------|--
A|--------|-----------|-------|--
E|--0--2--|--0--2--2--|--2\0--|--



E|-----------------------------|-------------------------------|----------------|-----
B|-----------------------------|-------------------------------|----------------|-----
G|-----------------------------|-------------------------------|----------------|-----
D|--------2h4------------------|--------2h4--------------------|--------2h4-----|-----
A|-------------0--0--2p0-------|-------------0-----------------|----------------|-----
E|--2--2------------------2p0--|--2--2----------2h5--5h7--7p5--|--2--2-------5--|-----



E|------------------------------|------------------------------------------------
B|------------------------------|------------------------------------------------
G|------------------------------|------------------------------------------------
D|----------------------2h4--2--|------------------4--2h4p2----------------------
A|------------------------------|----------------------------4-------------------
E|--2--2------2--2--------------|--2--2----2--2-----------------5--5----7--7-----



E|-------------------------------------------|---------------------|--
B|-------------------------------------------|---------------------|--
G|-------------------------------------------|---------------------|--
D|-------------------------------------------|---------------------|--
A|--------------------------------------7\0--|---------------------|--
E|--2--2----2--2----5--5----0--0--0--0-------|--2--2----2--2----5--|--



E|--
B|--
G|--
D|--
A|--
E|--



E|--------------------------------------------------------------------
B|--------------------------------------------------------------------
G|--------------------------------------------------------------------
D|--------------------------------------------------------------------
A|----------------------------------4--7------------4-----5--4--------
E|--2--2----2--2--2--0--2--4--5--5--------7------7-----7--------7--5--
http://www.guitartabcreator.com
Guitar Tab Creator is intended to store guitar tab created through the tool. It currently does not support in-line text editing. Any text you place in here will be lost. If you need to comment on your tab, please use the "Tab Notes" section located below.