Legend Continues Bass

(/) Slide Up  (\) Slide Down  (h) Hammer On  (p) Pull Off  (b) Bend (r) Release (v) Vibrato
E|-----------------------------------------------------------------------------
B|-----------------------------------------------------------------------------
G|-----------------------------------------------------------------------------
D|-----------------------------------------------------------------------------
A|-----------------------------------------------------------------------------
E|-0v--v--v--v--v--v--v--v--0v--v--v--v--v--v--v--v--2--4--5--4-2--4--5-4--2---



E|--------------------------------------------------------------------------------------------
B|--------------------------------------------------------------------------------------------
G|--------------------------------------------------------------------------------------------
D|--------------------------------------------------------------------------------------------
A|--------------------------------------------------------------------------------------------
E|-2--4--5--4-2--4--5-4--0------2-2-4-4-5-5-4-2-2-4-4-5-4-4-2-2-2-2-4-4-5-5-4-2-2-4-4-5-4-4-0-



E|-----------------------------------------------------------------
B|-----------------------------------------------------------------
G|-----------------------------------------------------------------
D|-----------------------------------------------------------------
A|-0-0-0-0-0-0-0-0-----------------3-3-3-3-3-3-3-3-----------------
E|-----------------2-2-2-2-2-2-2-2-----------------5-5-5-5-5-5-5-5-



E|-------------------------------------------------------
B|-------------------------------------------------------
G|-------------------------------------------------------
D|-----3-3-----3-------5-5-----5-------------------------
A|-------------------------------------------------------
E|-3-3-----3-3---3-5-5-----5-5---5-3--3-3-3--3-3-0--0-0v-



E|-------------------------------------------------------
B|-------------------------------------------------------
G|-------------------------------------------------------
D|-----3-3-----3-------5-5-----5-------------------------
A|-------------------------------------------------------
E|-3-3-----3-3---3-5-5-----5-5---5-7--7-7-7--7-7-0--0-0v-



E|----------------------------------------------------------------------------
B|----------------------------------------------------------------------------
G|----------------------------------------------------------------------------
D|-----3-3-----3-------5-5-----5-------3-3-----3------------------------------
A|----------------------------------------------------------------------------
E|-3-3-----3-3---3-5-5-----5-5---5-3-3-----3-3---3-0--0-0--0-0v---0v--3v---0v-
http://www.guitartabcreator.com
Guitar Tab Creator is intended to store guitar tab created through the tool. It currently does not support in-line text editing. Any text you place in here will be lost. If you need to comment on your tab, please use the "Tab Notes" section located below.