The Legend Continues

(/) Slide Up  (\) Slide Down  (h) Hammer On  (p) Pull Off  (b) Bend (r) Release (v) Vibrato

E|--0-----2-----3-----2--0-----2-----3--2-----0--
B|--3-----3-----3-----3--3-----3-----3--3-----2--
G|--2-----2-----2-----2--2-----2-----2--2-----2--
D|-----0-----0-----0--------0-----0--------0-----
A|-----------------------------------------------
E|-----------------------------------------------



E|--------------------------------------------------
B|--------------------------------------------------
G|--------------------------------------------------
D|--2--2--4--4--5--5--4--2--2--4--4--5--4--4--2--2--
A|--2--2--4--4--5--5--4--2--2--4--4--5--4--4--2--2--
E|--2--2--4--4--5--5--4--2--2--4--4--5--4--4--2--2--



E|--------------------------------------------------------------------------------------------------
B|--------------------------------------------------------------------------------------------------
G|--------------------------------------------------------------------------------------------------
D|--0--------0--------0-----2--------2--------2-----2--------2--------2-----5--------5--------5-----
A|--0--0--0--0--0--0--0--0--0--0--0--0--0--0--0--0--3--3--3--3--3--3--3--3--3--3--3--3--3--3--3--3--
E|--------------------------------------------------------------------------------------------------



E|--3--------3--------3-----5--------5--------5-----3----------3----------0-------0--
B|--6--------6--------6-----8--------8--------8-----6----------6----------3-------3--
G|--5--------5--------5-----7--------7--------7-----5----------5----------2-------2--
D|--3--------3--------3-----5--------5--------5-----3----------3----------0-------0--
A|--3--------3--------3-----5--------5--------5-----3----------3----------0-------0--
E|--3--3--3--3--3--3--3--3--5--5--5--5--5--5--5--5--3----3--3--3----3--3--0----0--0--



E|--3--------3--------3-----5--------5--------5-----7-----------7-----------0-------3-----
B|--6--------6--------6-----8--------8--------8-----10----------10----------3-------6-----
G|--5--------5--------5-----7--------7--------7-----9-----------9-----------2-------5-----
D|--3--------3--------3-----5--------5--------5-----7-----------7-----------0-------3-----
A|--3--------3--------3-----5--------5--------5-----7-----------7-----------0-------3-----
E|--3--3--3-----3--3-----3--5--5--5-----5--5-----5--7-----7--7--------7--7--0----0--3-----



E|--3--------3--------3-----5--------5--------5-----3--------3--------3-----0--------
B|--6--------6--------6-----8--------8--------8-----6--------6--------6-----3--------
G|--5--------5--------5-----7--------7--------7-----5--------5--------5-----2--------
D|--3--------3--------3-----5-----------------5-----3--------3--------3-----0--------
A|--3--------3--------3-----5--------5--------5-----3--------3--------3-----0--------
E|--3--3--3--3--3--3--3--3--5--5--5--5--5--5--5--5--3--3--3--3--3--3--3--3--0--------
http://www.guitartabcreator.com
Guitar Tab Creator is intended to store guitar tab created through the tool. It currently does not support in-line text editing. Any text you place in here will be lost. If you need to comment on your tab, please use the "Tab Notes" section located below.