Face the Blaze

(/) Slide Up  (\) Slide Down  (h) Hammer On  (p) Pull Off  (b) Bend (r) Release (v) Vibrato


E|-------------------------------------------------------
B|-------------------------------------------------------
G|-------------------------------------------------------
D|----------9-------------------------9------------------
A|-------------------------------------------------------
E|--9----9-----4--5--4--2--0--9----9-----4--5--4--2v-----



E|--------------------------------------------------------
B|--------------------------------------------------------
G|--------------------------------------------------------
D|----------9-------------------------9-------------------
A|--------------------------------------------------------
E|--9----9-----4--5--4--2--0--9----9-----4--5--4--2v------



E|--------------------------------------------------------
B|--------------------------------------------------------
G|--------------------------------------------------------
D|----------9-------------------------9-------------------
A|--------------------------------------------------------
E|--9----9-----4--5--4--2--0--9----9-----4--5--4--2v------



E|----------------------------------------------
B|----------------------------------------------
G|----------------------------------------------
D|----------9-----------------------------------
A|----------------------------------------------
E|--9----9-----4--5--4--2--0--2--4--5--4--5--7--



E|--------------------------------------------------------------
B|--------------------------------------------------------------
G|--------------------------------------------------------------
D|--------------------------------------------------------------
A|--------------------------------------------------------------
E|--9--9--9--9--9--9--9--9--9--9--7--7--7--7--7--7--7--7--7--7--



E|------------------------------------------------
B|------------------------------------------------
G|------------------------------------------------
D|------------------------------------------------
A|------------------------------------------------
E|--4----4--4--4----4--4--5----5--5--5----5----2--



E|-----------------------------------------------------
B|-----------------------------------------------------
G|-----------------------------------------------------
D|----------9-------------------------9----------------
A|-----------------------------------------------------
E|--9----9-----4--5--4--2--0--9----9-----5--4--2v------



E|--------------------------------------------------------
B|--------------------------------------------------------
G|--------------------------------------------------------
D|----------9-------------------------9-------------------
A|--------------------------------------------------------
E|--9----9-----4--5--4--2--0--9----9-----4--5--4--2v------



E|----------------------------------------------
B|----------------------------------------------
G|----------------------------------------------
D|----------9-----------------------------------
A|----------------------------------------------
E|--9----9-----4--5--4--2--0--2--4--5--4--5--7--



E|--------------------------------------------------------------
B|--------------------------------------------------------------
G|--------------------------------------------------------------
D|--------------------------------------------------------------
A|--------------------------------------------------------------
E|--9--9--9--9--9--9--9--9--9--9--7--7--7--7--7--7--7--7--7--7--



E|-------------------------------------------
B|-------------------------------------------
G|-------------------------------------------
D|-------------------------------------------
A|-------------------------------------------
E|--4----4--4--4----4--4--5----5--5--5----2--



E|--------------------------------------------------------
B|--------------------------------------------------------
G|--------------------------------------------------------
D|----------9-------------------------9-------------------
A|--------------------------------------------------------
E|--9----9-----4--5--4--2--0--9----9-----4--5--4--2v------



E|----------------------------------------------------
B|----------------------------------------------------
G|----------------------------------------------------
D|----------9-------------------------9---------------
A|----------------------------------------------------
E|--9----9-----4--5--4--2--0--9----9-----4--5--4--2v--



E|------------------------------------------------
B|------------------------------------------------
G|------------------------------------------------
D|------------9-----------------------------------
A|------------------------------------------------
E|--9------9-----4--5--4--2--0--2--4--5--4--5--7--



E|----------------------------------------------------------------
B|----------------------------------------------------------------
G|----------------------------------------------------------------
D|----------------------------------------------------------------
A|----------------------------------------------------------------
E|--2--4--5--4--5--7--2----4----2----4----2----4----2----4----7v--



E|-----------------------------------------------------------------------------------
B|-----------------------------------------------------------------------------------
G|-----------------------------------------------------------------------------------
D|-----------------------------------------------------------------------------------
A|-----------------------------------------------------------------------------------
E|--9----9--9----9--2----2--2----2--7----7--7----7----0----0--0----0------10v--v--v--



E|--------------------------------------------------------
B|--------------------------------------------------------
G|--------------------------------------------------------
D|----------9-------------------------9-------------------
A|--------------------------------------------------------
E|--9----9-----4--5--4--2--0--9----9-----4--5--4--2v------



E|--------------------------------------------------------
B|--------------------------------------------------------
G|--------------------------------------------------------
D|----------9-------------------------9-------------------
A|--------------------------------------------------------
E|--9----9-----4--5--4--2--0--9----9-----4--5--4--2v------



E|-------------------------------------------------------------------------
B|-------------------------------------------------------------------------
G|-------------------------------------------------------------------------
D|----------9--------------------------------------------------------------
A|-------------------------------------------------------------------------
E|--9----9-----4--5--4--2--0--4--5--4--5--7--2----4----5----7----9v--v--v--
http://www.guitartabcreator.com
Guitar Tab Creator is intended to store guitar tab created through the tool. It currently does not support in-line text editing. Any text you place in here will be lost. If you need to comment on your tab, please use the "Tab Notes" section located below.