untitled

(/) Slide Up  (\) Slide Down  (h) Hammer On  (p) Pull Off  (b) Bend (r) Release (v) Vibrato


E|-----------5h7--5---------|-----------4--------------|-----
B|--------5------------5----|--------5-----------------|-----
G|-----6--------------------|-----6--------------------|-----
D|--7-----------------------|--6-----------------------|-----
A|--------------------------|--------------------------|-----
E|--------------------------|--------------------------|-----



E|-----------5--4h5p4--------|-----------5--------------|--
B|--------5------------5-----|--------5-----------------|--
G|-----4------------------4--|-----6--------------------|--
D|--4------------------------|--7-----------------------|--
A|---------------------------|--------------------------|--
E|---------------------------|--------------------------|--



E|-----------5h7p5-------9----|--
B|--------5---------5---------|--
G|-----6----------------------|--
D|--7-------------------------|--
A|----------------------------|--
E|----------------------------|--
http://www.guitartabcreator.com
Guitar Tab Creator is intended to store guitar tab created through the tool. It currently does not support in-line text editing. Any text you place in here will be lost. If you need to comment on your tab, please use the "Tab Notes" section located below.