Snuff Cello part

(/) Slide Up  (\) Slide Down  (h) Hammer On  (p) Pull Off  (b) Bend (r) Release (v) Vibrato


Snuff Cello part
Use Vibrato Whenever Possible

(Intro)
A|------------------|
D|--4-4-4-4-0-0-0-0-|
F#|---7-7-7-7-3-3-3-3|
B|------------------|x6

A|--0-2-4-4h5-0--2-0-2-4-2|-2-4-2-0-2-4-5h7-5-4-4--2-0-2-4-2|
D|------------------------|---------------------------------|
F#|------------------------|---------------------------------|
C|------------------------|---------------------------------|

(So if you love me let me go...)
A|--------------------| |----------------|
D|--------------------| |----------------|
F#|--------------------| |----------------|
B|--5--0h5-5--7--2h7-7|x3 |--5--0h5-5--3---|

A|---9-7-4-2-0-------------9-7-4-2-0----------|
D|--7---------6-4-6-4-----7---------6-4-6-7---|
F#|--------------------------------------------|
B|--------------------------------------------|

(I still press your letters to my lips..)
A|------------------|
D|--4-4-4-4-0-0-0-0-|
F#|---7-7-7-7-3-3-3-3|
B|------------------|x6

(So save your breath I will not hear..)
A|---------------------| |----------------|
D|---------------------| |----------------|
F#|--5---------7--------| |--5---------3---|
B|--5--0h5-5--7--2h7-7-|x3 |--5--0h5-5--3---|

A|---9-7-4-2-0-------12-9-7----9-7-4-2-0-------9-7-5-|
D|--7---------6-4-6-4---------7---------6-4-6-7------|
F#|---------------------------------------------------|
B|---------------------------------------------------|x2

(So break yourself against my stones...)
A|---------------------|--------------------|--------7-----------|----------------------------|
D|---------------------|--------------------|--------------------|----------------------------|
F#|--5---------7--------|-5---------7--------|-5---------7--------|--5---------3333333333333333|
B|--5--0h5-5--7--2h7-7-|-5--0h5-5--7--2h7-7-|-5--0h5----7--2h7-7-|--5--0h5-5--3333333333333333|

A|-----------------------------------------------|-9-7-4-2-0-------12-9-7----9-7-4-2-0-------9-7-----|
D|-----------------------------------------------|7---------6-4-6-4---------7---------6-4-6-7---12-11|
F#|--------------------7777------------------888-7|---------------------------------------------------|
B|--7777-9999-10101010----3333-9999-10101010-----|---------------------------------------------------|










http://www.guitartabcreator.com
Guitar Tab Creator is intended to store guitar tab created through the tool. It currently does not support in-line text editing. Any text you place in here will be lost. If you need to comment on your tab, please use the "Tab Notes" section located below.