tab01

(/) Slide Up  (\) Slide Down  (h) Hammer On  (p) Pull Off  (b) Bend (r) Release (v) Vibrato
E|--9--------------------15--0--------
B|-----3------------------------3-----
G|--------5---------------------------
D|-----------10-----------------------
A|---------------12----------------3--
E|-------------------11---------------



E|--------6--------------------------
B|--1-----------2-----0--5-----8-----
G|-----------------------------------
D|-----------6-----------------------
A|-----1-----------2--------5-----8--
E|-----------------------------------



E|-----------------------------4-----8-----
B|--9-----9--------------6-----------------
G|--------------0--3-----------------------
D|--------------------------------4--------
A|-----9-----9--------------6-----------8--
E|--------------------3--------------------



E|-----------------------------9--------6--------
B|--2-----5--------------7-----------------------
G|--------------7--------------------------------
D|--------------------0--------------9-----6-----
A|-----2-----5--------------7-----9-----------0--
E|-----------------7-----------------------------



E|--5-----9--------5-----------3-----0--2-----9-----
B|-----------------------6--------------------------
G|--------------------------------------------------
D|-----5-----9--------5-----------3--------2-----9--
A|--------------------------6-----------------------
E|--------------0-----------------------------------



E|--4--------------------------------------
B|--------9-----3-----0--1-----------3-----
G|-----------------------------6-----------
D|-----4-----------------------------------
A|-----------9-----3--------1-----------3--
E|--------------------------------6--------



E|-----------------3-----------------------
B|-----2-----6-----------------9-----9-----
G|--0--------------------7-----------------
D|--------------------3--------------------
A|--------2-----6-----------------9-----9--
E|--------------------------7--------------



E|-----------3--------------9-----------8-----------
B|--------------------------------------------------
G|-----5--------------3-----------7-----------6-----
D|--0-----------3--------------9-----------8--------
A|-----------------0--------------------------------
E|--------5--------------3-----------7-----------6--



E|-----------4-----9-----7-----------------
B|--5--------------------------------3-----
G|-----------------------------6-----------
D|--------------4-----9-----7--------------
A|-----5--------------------------------3--
E|--------0-----------------------6--------



E|--0--5-----------3--------------9-----7-----
B|-----------------------0--------------------
G|-----------6--------------7-----------------
D|--------5-----------3--------------9-----7--
A|--------------------------------------------
E|--------------6--------------7--------------



E|--------5--------------8--------------
B|-----------------1--------------------
G|--6--------------------------------6--
D|--------------5--------------8--------
A|-----------5--------1-----8-----------
E|-----6--------------------------6-----
http://www.guitartabcreator.com
Guitar Tab Creator is intended to store guitar tab created through the tool. It currently does not support in-line text editing. Any text you place in here will be lost. If you need to comment on your tab, please use the "Tab Notes" section located below.