Light of Day

(/) Slide Up  (\) Slide Down  (h) Hammer On  (p) Pull Off  (b) Bend (r) Release (v) Vibrato


E|--4--0--2h4p2p0--7--5--0--4--0--5p4p2p0----------------
B|-----------------------------------------4--4/5--0-----
G|-------------------------------------------------------
D|-------------------------------------------------------
A|-------------------------------------------------------
E|-------------------------------------------------------



E|--4--0--2h4p2p0--7--5--0--4--0--5p4p2p0--4--4/5--5/7--
B|------------------------------------------------------
G|------------------------------------------------------
D|------------------------------------------------------
A|------------------------------------------------------
E|------------------------------------------------------



E|--4-----7--5--
B|--5-----5--5--
G|--4--6--6--6--
D|-----7--7--7--
A|-----7--------
E|--------------
http://www.guitartabcreator.com
Guitar Tab Creator is intended to store guitar tab created through the tool. It currently does not support in-line text editing. Any text you place in here will be lost. If you need to comment on your tab, please use the "Tab Notes" section located below.