Alienage 1

(/) Slide Up  (\) Slide Down  (h) Hammer On  (p) Pull Off  (b) Bend (r) Release (v) Vibrato


E|--0--2/4--|--0--2--2/4--|--0--2/4--|--4--4--4--4--|--
B|--0--2-4--|--0--2--2-4--|--0--2-4--|--5--4--5--4--|--
G|--2--4-6--|--2--4--2-4--|--2--4-6--|--6--6--6--6--|--
D|--2--4-6--|--2--4--4-6--|--2--4-6--|--6--6--6--6--|--
A|--0--2-4--|--0--2--4-6--|--0--2-4--|--4--4--4--4--|--
E|--0--2-4--|--0--2--2-4--|--0--2-4--|--4--4--4--4--|--



E|--9---11/12--|--9---9---
B|--10--9--9---|--10--9---
G|--11--9--9---|--11--9---
D|--11---------|--11--11--
A|-------------|----------
E|-------------|----------
http://www.guitartabcreator.com
Guitar Tab Creator is intended to store guitar tab created through the tool. It currently does not support in-line text editing. Any text you place in here will be lost. If you need to comment on your tab, please use the "Tab Notes" section located below.