will and the people - addicted

(/) Slide Up  (\) Slide Down  (h) Hammer On  (p) Pull Off  (b) Bend (r) Release (v) Vibrato


E|-----------------------------------------------------
B|--10--9--8-------------------------------------------
G|------------11--10--9--8--7--------------------------
D|-----------------------------9--7--5--3--2--0--2--3--
A|-----------------------------------------------------
E|-----------------------------------------------------



E|-5-5-5-5-5-5-5-5-3-3-3-3-3-3-3-3
B|-5-5-5-5-5-5-5-5-3-3-3-3-3-3-3-3
G|-5-5-5-5-5-5-5-5-4-4-4-4-4-4-4-4
D|-7-7-7-7-7-7-7-7-5-5-5-5-5-5-5-5
A|-7-7-7-7-7-7-7-7-5-5-5-5-5-5-5-5
E|-5-5-5-5-5-5-5-5-3-3-3-3-3-3-3-3



E|-------------------------------------------------1-1-1-1-1-1-1-1
B|-5-5-5-5-5-5-5-5-3-3-3-3-3-3-3-3-5-5-5-5-5-5-5-5-1-1-1-1-1-1-1-1-
G|-5-5-5-5-5-5-5-5-4-4-4-4-4-4-4-4-5-5-5-5-5-5-5-5-2-2-2-2-2-2-2-2
D|-5-5-5-5-5-5-5-5-4-4-4-4-4-4-4-4-5-5-5-5-5-5-5-5-3-3-3-3-3-3-3-3
A|-3-3-3-3-3-3-3-3-2-2-2-2-2-2-2-2-3-3-3-3-3-3-3-3-3-3-3-3-3-3-3-3
E|-------------------------------------------------1-1-1-1-1-1-1-1



E|-
B|-
G|-
D|-
A|-
E|-
http://www.guitartabcreator.com
Guitar Tab Creator is intended to store guitar tab created through the tool. It currently does not support in-line text editing. Any text you place in here will be lost. If you need to comment on your tab, please use the "Tab Notes" section located below.