Vampire

(/) Slide Up  (\) Slide Down  (h) Hammer On  (p) Pull Off  (b) Bend (r) Release (v) Vibrato


E|--------------------------
B|--------------------------
G|--------------------------
D|--------------------------
A|--------------------5-----
E|--7--5--2--0--7--5-----7--



E|------------------------------
B|------------------------------
G|------------------------------
D|------------------------------
A|------------------------------
E|--7--7--5--5--5--1/4--1/4--0--



E|------------------------------------------------------------
B|------------------------------------------------------------
G|------------------------------------------------------------
D|------------------------------------------------------------
A|--------------------9--9--11--11--12--11--9--7--5--4--2--0--
E|--7--7--7--5--5--5------------------------------------------
http://www.guitartabcreator.com
Guitar Tab Creator is intended to store guitar tab created through the tool. It currently does not support in-line text editing. Any text you place in here will be lost. If you need to comment on your tab, please use the "Tab Notes" section located below.