Roar

(/) Slide Up  (\) Slide Down  (h) Hammer On  (p) Pull Off  (b) Bend (r) Release (v) Vibrato


E|-------
B|-------
G|----4--
D|----4--
A|----2--
E|-------



E|-----------------
B|-----------------
G|--4--6--5--------
D|--4--6--5--4--5--
A|--2--4--3--4--5--
E|-----------2--3--



E|----------------------------4--5--4-----------
B|----------4-----------4--5-----------5--4-----
G|----4--5-----5--4--5-----------------------5--
D|----------------------------------------------
A|----------------------------------------------
E|----------------------------------------------
http://www.guitartabcreator.com
Guitar Tab Creator is intended to store guitar tab created through the tool. It currently does not support in-line text editing. Any text you place in here will be lost. If you need to comment on your tab, please use the "Tab Notes" section located below.