Lightning Dance For The Youth

(/) Slide Up  (\) Slide Down  (h) Hammer On  (p) Pull Off  (b) Bend (r) Release (v) Vibrato
E|----------------------------------------------------
B|----------------------------------------------------
G|----------------------------------------------------
D|----------------------------------------------------
A|--3--3--3--3--10--10--6--6--3--3--3--3--10--10--13--
E|----------------------------------------------------



E|--------------------------------------
B|--------------------------------------
G|--------------------------------------
D|----------------------------------10--
A|--13--13--13--13--11--11--10--10------
E|--------------------------------------



E|-----------------
B|-----------------
G|-----------------
D|-----------------
A|--3--13--11--10--
E|-----------------



E|---------------------
B|---------------------
G|---------------------
D|---------------------
A|--3--5--6--10--8--6--
E|---------------------



E|--------------------------------------
B|--------------------------------------
G|--------------------------------------
D|----------------------------------10--
A|--3--10--6--3--10--8--13--13--10------
E|--------------------------------------

http://www.guitartabcreator.com
Guitar Tab Creator is intended to store guitar tab created through the tool. It currently does not support in-line text editing. Any text you place in here will be lost. If you need to comment on your tab, please use the "Tab Notes" section located below.