I Don't (House Of The Rising Sun)

(/) Slide Up  (\) Slide Down  (h) Hammer On  (p) Pull Off  (b) Bend (r) Release (v) Vibrato


E|-----
B|-----
G|--7--
D|--7--
A|--5--
E|-----



E|-----------
B|-----------
G|--7--5--4--
D|--7--5--4--
A|--5--3--2--
E|-----------



E|-------------------------------------
B|-------------------------------------
G|--7--12--10--9--7--9--10--7--12--10--
D|--7--12--10--9--7--9--10--7--12--10--
A|--5--10--8---7--5--7--8---5--10--8---
E|-------------------------------------



E|--------------------------------------
B|--------------------------------------
G|--7--10--12--15--7--10--14--7--14--7--
D|--7--10--12--15--7--10--14--7--14--7--
A|--5--8---10--13--5--8---12--5--12--5--
E|--------------------------------------
http://www.guitartabcreator.com
Guitar Tab Creator is intended to store guitar tab created through the tool. It currently does not support in-line text editing. Any text you place in here will be lost. If you need to comment on your tab, please use the "Tab Notes" section located below.