Bens House

(/) Slide Up  (\) Slide Down  (h) Hammer On  (p) Pull Off  (b) Bend (r) Release (v) Vibrato

E|--------------
B|--------------
G|--9--7--5--4--
D|--9--7--5--4--
A|--7--5--3--2--
E|--------------



E|--------------
B|--------------
G|--9--7--5--7--
D|--9--7--5--7--
A|--7--5--3--5--
E|--------------



E|--------
B|--------
G|--4--5--
D|--4--5--
A|--2--3--
E|--------



E|---------8--10--8--10--11--10--8------
B|--8--10---------------------------10--
G|--------------------------------------
D|--------------------------------------
A|--------------------------------------
E|--------------------------------------
http://www.guitartabcreator.com
Guitar Tab Creator is intended to store guitar tab created through the tool. It currently does not support in-line text editing. Any text you place in here will be lost. If you need to comment on your tab, please use the "Tab Notes" section located below.