Nishe



E|-----------------0-----5--3--2--3--2--0--
B|--------0--------------------------------
G|-----------------------------------------
D|-----------------------------------------
A|-----------------------------------------
E|--3--5-----5--7-----0-----------------0--



E|--------------------------3--0-----
B|-----------------3-----5-----------
G|--------0--------------------------
D|-----------------------------------
A|--2--3-----3--5-----0--------------
E|-----------------------------0--
Guitar Tab Creator is intended to store guitar tab created through the tool. It currently does not support in-line text editing. Any text you place in here will be lost. If you need to comment on your tab, please use the "Tab Notes" section located below.