shake 1

(/) Slide Up  (\) Slide Down  (h) Hammer On  (p) Pull Off  (b) Bend (r) Release (v) Vibrato


E|--------------------------------
B|--------------------------------
G|--------------------------------
D|--------------------------------
A|--------5--5--------------------
E|--7--7--------2--3v--3v--3--3v--



E|-----------------------------------
B|-----------------------------------
G|-----------------------------------
D|-----------------------------------
A|--------5--5---------10--10--9--7--
E|--7--7--------2--3v----------------



E|--------------------------------
B|--------------------------------
G|--------------------------------
D|--------------------------------
A|--------5--5--------------------
E|--7--7--------2--3v--3v--3--3v--



E|-------------------------------------
B|-------------------------------------
G|-------------------------------------
D|-------------------------------------
A|--------5--5--10--10v--10v--10--10v--
E|--7--7-------------------------------



E|--------------------------------
B|--------------------------------
G|--------------------------------
D|--------------------------------
A|--------5--5--------------------
E|--7--7--------2--3v--3v--3--3v--
http://www.guitartabcreator.com
Guitar Tab Creator is intended to store guitar tab created through the tool. It currently does not support in-line text editing. Any text you place in here will be lost. If you need to comment on your tab, please use the "Tab Notes" section located below.