Shake

(/) Slide Up  (\) Slide Down  (h) Hammer On  (p) Pull Off  (b) Bend (r) Release (v) Vibrato


E|---------------------------------------------------------
B|---------------------------------------------------------
G|---------------------------------------------------------
D|---------------------------------------------------------
A|--------4--4--5--5v--7--7--5--5---------12v------12v-----
E|--7--7---------------------------7--5v-------5v-------5--



E|----------------------------------------------------------
B|----------------------------------------------------------
G|----------------------------------------------------------
D|----------------------------------------------------------
A|--------5--5--3------10---------------5--5--7-------------
E|--7--7-----------3v------3--3v--7--7-----------0v--0--0v--



E|---------------------------------------------------------
B|---------------------------------------------------------
G|---------------------------------------------------------
D|---------------------------------------------------------
A|--------5--7--9--10v--10--10v--------5--5--7-------------
E|--7--7-------------------------7--7-----------0v--0--0v--



E|--------------------------------------------------
B|--------------------------------------------------
G|--------------------------------------------------
D|--------------------------------------------------
A|--------5--7--9--10v--10--10v--------5--5--7------
E|--7--7-------------------------7--7-----------7v--
http://www.guitartabcreator.com
Guitar Tab Creator is intended to store guitar tab created through the tool. It currently does not support in-line text editing. Any text you place in here will be lost. If you need to comment on your tab, please use the "Tab Notes" section located below.