Realita

(/) Slide Up  (\) Slide Down  (h) Hammer On  (p) Pull Off  (b) Bend (r) Release (v) Vibrato
E|-------------------------------
B|-------------------------------
G|-------------------------------
D|-------------------------------
A|--5--5--3h5--3-----------------
E|----------------3--3--2--3--2--



E|---------------------------------------------------------
B|---------------------------------------------------------
G|---------------------------------------------------------
D|---------------------------------------------------------
A|--5--5--3h5--3-------------------------------------------
E|----------------3--3--2--3--2v--\7--2--7--7--5--7--5--2--



E|----------------------------
B|----------------------------
G|----------------------------
D|----------------------------
A|-----5-------------8--6-----
E|--5-----3----8--6--------8--



E|-----------------------------------------------------------
B|-----------------------------------------------------------
G|-----------------------------------------------------------
D|-----------------------------------------------------------
A|--------------------------------------------------7--------
E|--8--8--6--8\10--8--6h8p6--------------2\7--5--5-----7--5--



E|--------------------
B|--------------------
G|--------------------
D|--------------------
A|--7v--5--7\9--7--5--
E|--------------------
http://www.guitartabcreator.com
Guitar Tab Creator is intended to store guitar tab created through the tool. It currently does not support in-line text editing. Any text you place in here will be lost. If you need to comment on your tab, please use the "Tab Notes" section located below.