Naše píčovina - lukšův remake - domyslet refrén ! bridge hotov

(/) Slide Up  (\) Slide Down  (h) Hammer On  (p) Pull Off  (b) Bend (r) Release (v) Vibrato


G|---------------------------------------------------------
D|---------------------------------------------------------
A|---------------------------------------------------------
E|--2--2--0--2----2--2--0--2--2----2--2--0--2----4--4--5v--



G|---------------------------------------------------------
D|---------------------------------------------------------
A|---------------------------------------------------------
E|--2--2--0--2----2--2--0--2--2----2--2--0--2----5--5--4v-- 2x



G|----------------------------------------------------------------------------------------------
D|----------------------------------------------------------------------------------------------
A|----------------------------------------------------------------------------------------------
E|--2--2--0--2--2--2--2----2--2--0--2--2--2--2----2--0--2--2--2--2----4--4--4--4----5--5--5--5--



G|-----------------------------------------------------------------------------------------------
D|-----------------------------------------------------------------------------------------------
A|-----------------------------------------------------------------------------------------------
E|--2--2--0--2--2--2--2----2--2--0--2--2--2--2----2--2--0--2--2--2--2----5--5--5--5--4--4--4--4-- 2x
http://www.guitartabcreator.com
Guitar Tab Creator is intended to store guitar tab created through the tool. It currently does not support in-line text editing. Any text you place in here will be lost. If you need to comment on your tab, please use the "Tab Notes" section located below.