luksova picovina zo slovenska

(/) Slide Up  (\) Slide Down  (h) Hammer On  (p) Pull Off  (b) Bend (r) Release (v) Vibrato


E|--------------------------
B|--------------------------
G|--------------------------
D|--------------------------
A|-----4--6--7-----9--7--6--
E|--4-----------7-----------



E|--------------------------------------------------
B|--------------------------------------------------
G|--------------------------------------------------
D|--------------------------------------------------
A|--------4--4--6--6--7--7--------9--9--7--7--6--6--
E|--4--4--------------------7--7--------------------



E|----------------------------------------------------
B|----------------------------------------------------
G|----------------------------------------------------
D|----------------------------------------------------
A|--0\9--9--9--9--5--5--5--5--------------7--7--7--7--
E|----------------------------5--5--5--5--------------
http://www.guitartabcreator.com
Guitar Tab Creator is intended to store guitar tab created through the tool. It currently does not support in-line text editing. Any text you place in here will be lost. If you need to comment on your tab, please use the "Tab Notes" section located below.