Lukšova píčovina 3

(/) Slide Up  (\) Slide Down  (h) Hammer On  (p) Pull Off  (b) Bend (r) Release (v) Vibrato

G|------------------------------------------------------------------------------------------------
D|------------------------------------------------------------------------------------------------
A|--------------------------------------------------5----5--5----5--5--5----5----5--5----5--5--5--
E|--3----3--3----3--3--3----3----3--3----3--3--3--------------------------------------------------




G|------------------------------------------------------------------------------------------------
D|------------------------------------------------------------------------------------------------
A|--0----0--0----0--0--0----0----0--0----0--0--0----3----3--3----3--3--3----3----3--3----3--3--3--
E|------------------------------------------------------------------------------------------------



G|------------------------------------------------------------------------------------------------
D|------------------------------------------------------------------------------------------------
A|--------------------------------------------------5----5--5----5--5--5----5----5--5----5--5--5--
E|--3----3--3----3--3--3----3----3--3----3--3--3--------------------------------------------------



G|------------------------------------------------------------------------------------------------
D|------------------------------------------------------------------------------------------------
A|--0----0--0----0--0--0----0----0--0----0--0--0-----7----7--7----7--7--7----7----7--7----7--7--7--
E|-------------------------------------------------------------------------------------------------
http://www.guitartabcreator.com
Guitar Tab Creator is intended to store guitar tab created through the tool. It currently does not support in-line text editing. Any text you place in here will be lost. If you need to comment on your tab, please use the "Tab Notes" section located below.