Krejčovská

(/) Slide Up  (\) Slide Down  (h) Hammer On  (p) Pull Off  (b) Bend (r) Release (v) Vibrato

E|--------------------------------------------------------------------
B|--------------------------------------------------------------------
G|--------------------------------------------------------------------
D|--------------------------------------------------------------------
A|--------------------------------------------------------------------
E|--5----------------3----------------1----------------0--------------



E|---------------------------------------------------------------------------------------
B|---------------------------------------------------------------------------------------
G|---------------------------------------------------------------------------------------
D|---------------------------------------------------------------------------------------
A|---------------------------------------------------------------------------------------
E|--5----------------3----------------1--1--1--1--1--1--1--1--1--0--0--0--0--0--0--0--0--



E|------------------------------------------------------------------------------------------
B|------------------------------------------------------------------------------------------
G|------------------------------------------------------------------------------------------
D|-----------------7-----7-----------------5-------------------3-----3--------------3-------
A|-------------------------------------------------------------------------------3-----3--0r
E|--5--5--5--5--5-----5-----3--3--3--3--3-----3r1--1--1--1--1-----1-----0--0--0-------------



E|---------------------------------------------------------------------------------------------
B|---------------------------------------------------------------------------------------------
G|-----------------9-----9-----------7--5--------------------3\7--7--5--7-----------2\5--5-----
D|--7--7--7--7--7-----7-----5--5--5--------7--5-----3--3--3----------------2--2--2----------7--
A|-----------------------------------------------7---------------------------------------------
E|---------------------------------------------------------------------------------------------



E|-----------------------------------------------------------------------------
B|-----------------------------------------------------------------------------
G|--------------9--7--------9--7--------------------------7--5-----9--7--9--7--
D|--7--7--7--7--------9--7--------9--7--5--5--5--5--5--5--------7--------------
A|-----------------------------------------------------------------------------
E|-----------------------------------------------------------------------------



E|-------------------------------------------------------------------
B|-------------------------------------------------------------------
G|--------------3--5-----------------------2\7--7--7--7--7--9--5-----
D|--3--3--3--3-----------5--3--5--2--2--2----------------------------
A|--------------------3----------------------------------------------
E|-------------------------------------------------------------------



E|-----------------------------------------------------------------------------------------
B|-----------------------------------------------------------------------------------------
G|-----------------------------------------------------------------------------------------
D|--------------------7--5-----------------5--3-----5-----------------3--3-----3-----3-----
A|--------------------------7--------------------5-----3-----------------------------------
E|--5--5--5--5--5--5-----------3--3--3--3-----------------1--1--1--1--------1-----1--------



E|--------------------------------
B|--------------------------------
G|--------------------------------
D|-----------------3--------------
A|--------------3-----3--0--3--0--
E|--0--0--0--0--------------------
Guitar Tab Creator is intended to store guitar tab created through the tool. It currently does not support in-line text editing. Any text you place in here will be lost. If you need to comment on your tab, please use the "Tab Notes" section located below.