ENADR PÍČOVINA... TOO MANY OF THESE BYT THIS MIGHT BE ACTUALLY GOOD

(/) Slide Up  (\) Slide Down  (h) Hammer On  (p) Pull Off  (b) Bend (r) Release (v) Vibrato
E|---------------------------------------------------------------------------------------------------
B|---------------------------------------------------------------------------------------------------
G|---------------------------------------------------------------------------------------------------
D|--2h3-----------------------------------------------------2h3r-3--3--3--3--3--3--3--3--3--3--3--3--
A|--------5h4r-5--5--5--5--5--5--5--5--5--5--5--5--5--4h5--------------------------------------------
E|---------------------------------------------------------------------------------------------------



E|---------------------------------------------------------------------------------------------
B|---------------------------------------------------------------------------------------------
G|---------------------------------------------------------------------------------------------
D|--2h3--------------------------------------------------2h3r--3--3--3--3--3--3--5--5--5--5--5--
A|--------4h5r-5--5--5--5--5--5--3--3--3--3--3--4h5--------------------------------------------
E|---------------------------------------------------------------------------------------------
http://www.guitartabcreator.com
Guitar Tab Creator is intended to store guitar tab created through the tool. It currently does not support in-line text editing. Any text you place in here will be lost. If you need to comment on your tab, please use the "Tab Notes" section located below.