ENADR PÍČOVINA... ENDING MAYBE

(/) Slide Up  (\) Slide Down  (h) Hammer On  (p) Pull Off  (b) Bend (r) Release (v) Vibrato


E|----------------------------------------------------------------------------------------------------
B|----------------------------------------------------------------------------------------------------
G|---------------------------------------5-----------------------------------------9------------------
D|-------2h3--3--3----3--3--3----3----3-----3----3----3--3----2h3--5h7--7--7----7-----7----7----7--7--
A|--4h5-----------------------------------------------------------------------------------------------
E|----------------------------------------------------------------------------------------------------



E|-------------------------------------------------------------------------------------------------
B|-------------------------------------------------------------------------------------------------
G|----------------------------------------------------------5--------------------------------------
D|--7h9/5--5--5----5--5--5----5----5----5h7/3----3--3----3-----3----3----3--3----2h3---------------
A|------------------------------------------------------------------------------------4h5----5--5--
E|-------------------------------------------------------------------------------------------------



E|----------------------------------------------------------------------------------
B|----------------------------------------------------------------------------------
G|----------------------------------------------------------------------------------
D|-----7--------------------------------------------9-----------------------9-------
A|--5-----5----5----5--5----4h5--4--7----7--7----7-----7----7----7--7----7-----9--5r
E|----------------------------------------------------------------------------------
http://www.guitartabcreator.com
Guitar Tab Creator is intended to store guitar tab created through the tool. It currently does not support in-line text editing. Any text you place in here will be lost. If you need to comment on your tab, please use the "Tab Notes" section located below.