5.10.2013 Super riff !!

(/) Slide Up  (\) Slide Down  (h) Hammer On  (p) Pull Off  (b) Bend (r) Release (v) Vibrato

E|------------------------------------------------------------------------------------------------
B|------------------------------------------------------------------------------------------------
G|-----10-----10------13------13-----8-----8------11------11-----6-----6-----6-----6-----6-----6--
D|---------------------------------------------------------------0-----0-----0-----0-----0-----0--
A|------------------------------------------------------------------------------------------------
E|--9------9------12------12------7-----7-----10------10------5-----5-----5-----5-----5-----5-----



E|--------------
B|--------------
G|-----6-----6--
D|-----0-----0--
A|--------------
E|--5-----5-----
http://www.guitartabcreator.com
Guitar Tab Creator is intended to store guitar tab created through the tool. It currently does not support in-line text editing. Any text you place in here will be lost. If you need to comment on your tab, please use the "Tab Notes" section located below.