12.3.2013 (PICK)

(/) Slide Up  (\) Slide Down  (h) Hammer On  (p) Pull Off  (b) Bend (r) Release (v) Vibrato

VERSE
G|--9--9--9--9--9--9--9--9--5--5--5--5--5--5--5--5--9--9--9--9--9--9--9--9--5--5--5--5--4--4--4--4--
D|--7-----7-----7-----7-----3-----3-----3-----3-----7-----7-----7-----7-----3-----3-----2-----2-----
A|--------------------------------------------------------------------------------------------------
E|--------------------------------------------------------------------------------------------------



CHORUS
G|--9--9--9--9--12--12--12--12--9--9--9--9--7--7--7--7--9--9--9--9--12--12--12--12--7--7--7--7--
D|--7-----7-----10------10------7-----7-----5-----5-----7-----7-----10------10------5-----5-----
A|----------------------------------------------------------------------------------------------
E|----------------------------------------------------------------------------------------------

G|--4--4--5--5--
D|--2-----3-----
A|--------------
E|--------------
http://www.guitartabcreator.com
Guitar Tab Creator is intended to store guitar tab created through the tool. It currently does not support in-line text editing. Any text you place in here will be lost. If you need to comment on your tab, please use the "Tab Notes" section located below.