eu ouvi um passarinho

(/) Slide Up  (\) Slide Down  (h) Hammer On  (p) Pull Off  (b) Bend (r) Release (v) Vibrato

E|---------------------------------------------------------
B|--------3--5--3--------3---------3--5--3-----------------
G|--4--5-----------5--4---------5-----------5--4--5--2-----
D|------------------------------------------------------5--
A|---------------------------------------------------------
E|---------------------------------------------------------



E|--------------------------------------------------------5--5--9--7--5--7--9--5--
B|--3---------------------------3--3--5--3----------------------------------------
G|-----5--4--2-----------2------------------5--4--2-------------------------------
D|--------------5--4--5------------------------------5----------------------------
A|--------------------------------------------------------------------------------
E|--------------------------------------------------------------------------------



E|-----
B|-----
G|-----
D|-----
A|-----
E|-----
http://www.guitartabcreator.com
Guitar Tab Creator is intended to store guitar tab created through the tool. It currently does not support in-line text editing. Any text you place in here will be lost. If you need to comment on your tab, please use the "Tab Notes" section located below.