riff ideas 002

(/) Slide Up  (\) Slide Down  (h) Hammer On  (p) Pull Off  (b) Bend (r) Release (v) Vibrato


E|-------------------------------------------------------------------------------------------------
B|--------------------------------------------------13---------------------------------------------
G|----------12----------14----------15----------14------14--12----------10----------12-------------
D|--12--12------12--12------12--12------12--12------------------10--10------10--10------10--10-----
A|-------------------------------------------------------------------------------------------------
E|-------------------------------------------------------------------------------------------------



E|---------------------------
B|---------------------------
G|--12----------12\14/12/10--
D|------10--10---------------
A|---------------------------
E|---------------------------
http://www.guitartabcreator.com
Guitar Tab Creator is intended to store guitar tab created through the tool. It currently does not support in-line text editing. Any text you place in here will be lost. If you need to comment on your tab, please use the "Tab Notes" section located below.