Punk

(/) Slide Up  (\) Slide Down  (h) Hammer On  (p) Pull Off  (b) Bend (r) Release (v) Vibrato


Vers
E|-------------------------------|
B|-------------------------------|
G|-------------------------------|
D|-5--5--7--7--8--8-7--7-7-7--x8-|
A|-5--5--7--7--8--8-7--7-7-7-----|
E|-3--3--5--5--6--6-5--5-5-5-----|


Refräng
E|------------------------------|
B|------------------------------|
G|-9--9-------------------------|
D|-9--9--10--10--9--9--7--6--x4-|
A|-7--7--10--10--9--9--7--6-----|
E|--------8---8--7--7--5--4-----|


Vers
Refräng
Vers
Refräng
Vers
Refräng
Vers/Outro
Guitar Tab Creator is intended to store guitar tab created through the tool. It currently does not support in-line text editing. Any text you place in here will be lost. If you need to comment on your tab, please use the "Tab Notes" section located below.