Pop-Punk bas

(/) Slide Up  (\) Slide Down  (h) Hammer On  (p) Pull Off  (b) Bend (r) Release (v) Vibrato

Vers
G|---------------------------------------------------------------------|
D|---------------------------------------------------------------------|
A|-3-3-3-3-3-3-3-3--------------------------------------------------x4-|
E|-----------------3-3-3-3-3-3-3-3-1-1-1-1-1-1-1-1-3-3-3-3-3-3-3-3-----|


Refräng
G|-------------------------------------|-----------------------|
D|-------------------------------------|-----------------------|
A|----------------------------------x3-|--------------------x1-|
E|-5-5-5-5-5-5-5-5-1-1-1-1-1-1-1-1-----|-3-3-3-3-3-3-3-3-3-----|



Bas Solo
G|---------------------------------------------------------------|
D|---------------------------------------------------------------|
A|-3--3--3-3-2---------------------------------------------2--x6-|
E|--------------3--3-3--3-3-3-2-1--1-1-1-0-1-3--3-3--3-3-3-------|



Vers
Refräng
Vers
Refräng
Vers
Refräng
Bas Solo
Refräng
Vers/Outro
Guitar Tab Creator is intended to store guitar tab created through the tool. It currently does not support in-line text editing. Any text you place in here will be lost. If you need to comment on your tab, please use the "Tab Notes" section located below.