Pop-Punk

(/) Slide Up  (\) Slide Down  (h) Hammer On  (p) Pull Off  (b) Bend (r) Release (v) Vibrato

Vers
E|-----------------------------------------------------------------|
B|-----------------------------------------------------------------|
G|-5--5-5-5-5-5----------------------------------------------------|
D|-5--5-5-5-5-5-5--5-5-5-5-5-5-5-3--3-3-3-3-3-5--5-5-5-5-5-5-5--4x-|
A|-3--3-3-3-3-3-5--5-5-5-5-5-5-5-3--3-3-3-3-3-5--5-5-5-5-5-5-5-----|
E|--------------3--3-3-3-3-3-3-3-1--1-1-1-1-1-3--3-3-3-3-3-3-3-----|


Refräng
E|-----------------------------------|-----------------------|
B|-----------------------------------|-----------------------|
G|-----------------------------------|-----------------------|
D|-7--7-7-7-7-7-3--3-3-3-3-3-3-3--x3-|-5-5-5-5-5-5-5-5-5--x1-|
A|-7--7-7-7-7-7-3--3-3-3-3-3-3-3-----|-5-5-5-5-5-5-5-5-5-----|
E|-5--5-5-5-5-5-1--1-1-1-1-1-1-1-----|-3-3-3-3-3-3-3-3-3-----|



Solo
E|-------------------------------------------|--------------------------------------|
B|-8--8--6-5---------------------------------|-8--8--6-5----------------------------|
G|-----------7--7-7-7-9--7--5--5-5-5-7--9--7-|-----------7--7-7-7-9--7--5--5--5-----|
D|-------------------------------------------|----------------------------------7-5-|
A|-------------------------------------------|--------------------------------------|
E|-------------------------------------------|--------------------------------------|

Challe hittar på ett slut
E|-------------------------------------------|--------------------------------------|
B|-8--8--6-5---------------------------------|--------------------------------------|
G|-----------7--7-7-7-9--7--5--5-5-5-7--9--7-|--------------------------------------|
D|-------------------------------------------|--------------------------------------|
A|-------------------------------------------|--------------------------------------|
E|-------------------------------------------|--------------------------------------|


Vers
Refräng
Vers
Refräng
Solo
Refräng
Vers(bara bas)
Refräng
Vers/Outro
Guitar Tab Creator is intended to store guitar tab created through the tool. It currently does not support in-line text editing. Any text you place in here will be lost. If you need to comment on your tab, please use the "Tab Notes" section located below.