Parafilia Bas

(/) Slide Up  (\) Slide Down  (h) Hammer On  (p) Pull Off  (b) Bend (r) Release (v) Vibrato

Refräng
G|---------------------------------------------------------------------|
D|---------------------------------------------------------------------|
A|-5-5-5-5-5-5-5-5--------------------------------------------------x4-|
E|-----------------5-5-5-5-5-5-5-5-3-3-3-3-3-3-3-3-5-5-5-5-5-5-5-5-----|



Vers
G|------------------------------|
D|------------------------------|
A|-5-5-5-5-5-5-5-5-----------x8-|
E|-----------------3--3-5-5-----|


Refräng
Vers
Refräng
Vers
Refräng/Outro x2
Guitar Tab Creator is intended to store guitar tab created through the tool. It currently does not support in-line text editing. Any text you place in here will be lost. If you need to comment on your tab, please use the "Tab Notes" section located below.