Parafilia

(/) Slide Up  (\) Slide Down  (h) Hammer On  (p) Pull Off  (b) Bend (r) Release (v) Vibrato

Refräng
E|-------------------------------------------------------------|
B|-------------------------------------------------------------|
G|-7--7--7-7-7-7-----------------------------------------------|
D|-7--7--7-7-7-7--7-7--7-7-7-7-5--5--5-5-5-7--7-7--7-7-7-7--x4-|
A|-5--5--5-5-5-7--7-7--7-7-7-7-5--5--5-5-5-7--7-7--7-7-7-7-----|
E|-------------5--5-5--5-5-5-5-3--3--3-3-3-5--5-5--5-5-5-5-----|


Vers
E|--------------------------|
B|--------------------------|
G|-7--7--7--7---------------|
D|-7--7--7--7--5--5-7-7--x8-|
A|-5--5--5--5--5--5-7-7-----|
E|-------------3--3-5-5-----|


Refräng
Vers
Refräng
Vers
Refräng/Outro x4
Guitar Tab Creator is intended to store guitar tab created through the tool. It currently does not support in-line text editing. Any text you place in here will be lost. If you need to comment on your tab, please use the "Tab Notes" section located below.