The Last Drive - Departures

E|--------
B|--------
G|--9--5--
D|--x--x--
A|--7--3--
D|--------



E|-----------
B|-----------
G|--9--5--7--
D|-----------
A|--7--3--5--
D|-----------



E|---------------
B|---------------
G|--5--7--9--12--
D|--5--7--9--12--
A|--3--5--7--10--
D|--3--5--7--10--




E|--------------------------------------------
B|--------------------------------------------
G|--------------------------------------------
D|--7--7--7--7--7--7--3--3--3--3--3--3--3--3--
A|--7--7--7--7--7--7--3--3--3--3--3--3--3--3--
D|--7--7--7--7--7--7--3--3--3--3--3--3--3--3--



E|--------------
B|--------------
G|--------------
D|--7--7--3--5--
A|--7--7--3--5--
D|--7--7--3--5--



E|-----------------------
B|-----------------------
G|--9--5--7--9--5--7--9~~
D|-----------------------
A|--7--3--5--7--3--5--7~~
D|-----------------------

http://www.guitartabcreator.com
Guitar Tab Creator is intended to store guitar tab created through the tool. It currently does not support in-line text editing. Any text you place in here will be lost. If you need to comment on your tab, please use the "Tab Notes" section located below.