How steep the road runs.

(/) Slide Up  (\) Slide Down  (h) Hammer On  (p) Pull Off  (b) Bend (r) Release (v) Vibrato

E|--------0--3--2-----------------2--0-----2--3--2--0-----------0--3--2-----------------2--0-----
B|-----0-----------3-----------3--------0--------------3-----0-----------3-----------3-----------
G|--------------------2-----2-----------------------------------------------2-----2--------------
D|-----------------------------------------------------------------------------------------------
A|-----------------------------------------------------------------------------------------------
E|--0--------------------0--------------------------------0--------------------0-----------------



E|-----2--3--2--0-----------0--7--5--------------0--8--7-----7--8--7---------------0--3--2--------
B|--0--------------3-----0-----------7--5-----0-----------8-----------12--8-----0-----------3-----
G|---------------------------------------------------------------------------------------------2--
D|------------------------------------------------------------------------------------------------
A|------------------------------------------------------------------------------------------------
E|--------------------0--------------------0---------------------------------0--------------------



E|-----------2--0--
B|--------3--------
G|-----2-----------
D|-----------------
A|-----------------
E|--0--------------



E|--
B|--
G|--
D|--
A|--
E|--
http://www.guitartabcreator.com
Guitar Tab Creator is intended to store guitar tab created through the tool. It currently does not support in-line text editing. Any text you place in here will be lost. If you need to comment on your tab, please use the "Tab Notes" section located below.