tab one

(/) Slide Up  (\) Slide Down  (h) Hammer On  (p) Pull Off  (b) Bend (r) Release (v) Vibrato


E|---------------------------------------9/14v--9----------11--10--15--------------19------
B|-------------------------------------------------10--11--------------16------18------20--
G|-------------------------------------------------------------------------17--------------
D|--9--9--0--7--7--0--5--5--0--3--5--12----------------------------------------------------
A|--9--9--0--7--7--0--5--5--0--3--5--12----------------------------------------------------
E|--9--9--0--7--7--0--5--5--0--3--5--12----------------------------------------------------



E|--0-----------------------------10------------------------------------------21v--b
B|-----1-----------------------9------11------------------------------19--20--------
G|--------2-----------------8-------------12----------------------18----------------
D|-----------3-----------7--------------------13--------------17--------------------
A|--------------4-----6---------------------------14------16------------------------
E|-----------------5----------------------------------15----------------------------



E|-----------------------------------------------------------15--14--17--16--19--21--19--21b
B|------------------------------------------------------------------------------------------
G|------------------------------------------------------------------------------------------
D|------------------------------------------------------------------------------------------
A|------------------------------------------------------------------------------------------
E|--0--0--6--4--6--5--3--7--6--0--0--5--3--6--4--5--4--7--5---------------------------------



E|--10------12--11--11--11--12------13v--16h18p16h18p16--21v--19--20--21----------16--------------
B|------11----------------------14----------------------------------------15--16------------------
G|------------------------------------------------------------------------------------------------
D|------------------------------------------------------------------------------------------------
A|----------------------------------------------------------------------------------------17--18--
E|------------------------------------------------------------------------------------19----------



E|--
B|--
G|--
D|--
A|--
E|--
http://www.guitartabcreator.com
Guitar Tab Creator is intended to store guitar tab created through the tool. It currently does not support in-line text editing. Any text you place in here will be lost. If you need to comment on your tab, please use the "Tab Notes" section located below.