a# major

(/) Slide Up  (\) Slide Down  (h) Hammer On  (p) Pull Off  (b) Bend (r) Release (v) Vibrato
E|---------------------------------------------------------------11--13--15--16p15p13--
B|---------------------------------------------------11--13--15------------------------
G|---------------------------------------12--14--15------------------------------------
D|---------------------------12--13--15------------------------------------------------
A|--13p12h13p12h13p12h13p12------------------------------------------------------------
E|-------------------------------------------------------------------------------------



E|---------------------------------------------------------------------------------------
B|--15--13------15--13--16------13------15------16---------------------------------------
G|----------12--------------12------12------12------12h14h15--15b17b15b17--15b17r15p14v--
D|---------------------------------------------------------------------------------------
A|---------------------------------------------------------------------------------------
E|---------------------------------------------------------------------------------------



E|----------------------------------------------------5h6p5--8--8--10--11----------------
B|------------------------------------------4h6p4--8-----------------------8--10--11-----
G|--------------------------------5h7p5--8-----------------------------------------------
D|----------------------5h7p5--8---------------------------------------------------------
A|------------5h6p5--8-------------------------------------------------------------------
E|--5h6p5--8-----------------------------------------------------------------------------



E|-------------------------------------------------13--15--17--18p17p15p13------------------------
B|-------------------------------------13--15--16---------------------------16p15------16p15------
G|--8--10--12--------------12--14--15----------------------------------------------14---------14--
D|-------------10--12--13-------------------------------------------------------------------------
A|------------------------------------------------------------------------------------------------
E|------------------------------------------------------------------------------------------------



E|------------------
B|--16p15------18v--
G|---------14-------
D|------------------
A|------------------
E|------------------
http://www.guitartabcreator.com
Guitar Tab Creator is intended to store guitar tab created through the tool. It currently does not support in-line text editing. Any text you place in here will be lost. If you need to comment on your tab, please use the "Tab Notes" section located below.