E Major/Minor Pent

(/) Slide Up  (\) Slide Down  (h) Hammer On  (p) Pull Off  (b) Bend (r) Release (v) Vibrato
E|-----------------------------------------------------------
B|---------12--9------------10h12/15-------------------------
G|--9--11----------------9------------12--14-----------------
D|----------------11--9-----------------------12--14b17p12v--
A|-----------------------------------------------------------
E|-----------------------------------------------------------



E|-----0--3-------------------0--3--
B|-----0--0--2----------------0--3--
G|-----1--0--2----------------0--2--
D|--2--2--0--2----------------0--0--
A|--2--2--2--0--2--4-------2--2-----
E|--0-----3-----------2h4-----0-----



E|--12--14--16----------------------12h14--12-7-------------7h9p7--16p9p7--14p9p7--12p9p7-----
B|--------------14--17--------------12-----12\7--------7h9------------------------------------
G|----------------------16/13--11v------------------9-----------------------------------------
D|-----------------------------------------------9--------------------------------------------
A|--------------------------------------------------------------------------------------------
E|--------------------------------------------------------------------------------------------



E|--14p9p7----------------------------------------------------------------7h9--12--14-----
B|----------17p9p7--14p9p7--12p9p7--14p9p7--17p9p7-------------------7h9------------------
G|--------------------------------------------------6--9--------6h9-----------------------
D|--------------------------------------------------------6--9----------------------------
A|----------------------------------------------------------------------------------------
E|----------------------------------------------------------------------------------------



E|--------------------------14p12----------------
B|--12--14--------------12---------14b16r14p12v--
G|----------11--13--11---------------------------
D|-----------------------------------------------
A|-----------------------------------------------
E|-----------------------------------------------



E|-----------------------
B|--------------3--3-----
G|--------------2--2-----
D|--2--2--2--2--0--0-----
A|--2--2--2--2--------0--
E|--0--0--3--3--------0--



E|-------------------------10h12p10h15p10h12p10----------------------10h12p10h15p10h12p10--
B|-----10h12--------10h12------------------------10h12--------10h12------------------------
G|--9---------9h12--------------------------------------9h12-------------------------------
D|-----------------------------------------------------------------------------------------
A|-----------------------------------------------------------------------------------------
E|-----------------------------------------------------------------------------------------



E|----------------------10h12p10h15p10h12p10----------------------10h12p10h15p10h12p10-----
B|--10h12--------10h12------------------------10h12--------10h12---------------------------
G|---------9h12--------------------------------------9h12----------------------------------
D|-----------------------------------------------------------------------------------------
A|-----------------------------------------------------------------------------------------
E|-----------------------------------------------------------------------------------------



E|--------------------------------------------------------------10--12--15----------12--
B|--10h12-----------------------------3--5-----------8--10--12--------------14------12--
G|---------9h12--7h12--4h12--2h12p2v--------4--7--9-----------------------------12--12--
D|--------------------------------------------------------------------------------------
A|--------------------------------------------------------------------------------------
E|--------------------------------------------------------------------------------------



E|----------------------------------------------------
B|--15--12--------------------------------------------
G|----------14--12--9v--19p9/12--19p12/14--19p14/16v--
D|----------------------------------------------------
A|----------------------------------------------------
E|----------------------------------------------------
http://www.guitartabcreator.com
Guitar Tab Creator is intended to store guitar tab created through the tool. It currently does not support in-line text editing. Any text you place in here will be lost. If you need to comment on your tab, please use the "Tab Notes" section located below.