C Major Solo

(/) Slide Up  (\) Slide Down  (h) Hammer On  (p) Pull Off  (b) Bend (r) Release (v) Vibrato

Stave 1:

E|----------------------------
B|-----------3----------3--3--
G|-----------2----2--2--2--0--
D|--5--5-----0----2--2--0--0--
A|--3--3--2-------0--0--------
E|--------0----------------3--

Stave 2:

E|-----------------------------------------------------
B|-----------------------------------------------------
G|-----------------------------------------------------
D|--------5-----------7-----------9--------9--7--5-----
A|-----3-----3-----5-----5-----7-----7-----7--5--3--2--
E|--0-----------0-----------0-----------0-----------0--

Stave 3:

E|-------------------------------------------------------
B|-----6p5h6p5--8------------6p5h6p5--8------------------
G|--5--------------7--5\3/5--------------7--5\3/5--------
D|-------------------------------------------------------
A|-------------------------------------------------------
E|-------------------------------------------------------

http://www.guitartabcreator.com
Guitar Tab Creator is intended to store guitar tab created through the tool. It currently does not support in-line text editing. Any text you place in here will be lost. If you need to comment on your tab, please use the "Tab Notes" section located below.