Black Keys - I got mine

(/) Slide Up  (\) Slide Down  (h) Hammer On  (p) Pull Off  (b) Bend (r) Release (v) Vibrato

E|----------------------------------------
B|----------------------------------------
G|--8----8--7--6----6--5--4----3----2-----
D|--9----9--8--7----7--6--5----4----3-----
A|--9----9--8--7----7--6--5----4----3-----
E|--7----7--6--5----5--4--3----2----1-----



E|--------------------------------------|--------------------------------------|--
B|--------------------------------------|--------------------------------------|--
G|--------------------------------------|--------------------------------------|--
D|--------------------------5--7--5-----|--------------------------------------|--
A|-----7--5--7-----7--5--7-----------7--|-----7--5--7-----7--5--7--------------|--
E|--0-----------0-----------------------|--0-----------0-----------3--5--3--0--|--



E|--------------------3b|--
B|----------------------|--
G|----------------------|--
D|----------------------|--
A|--2--2--5--5--7--7----|--
E|--0--0--3--3--5--5----|--



E|-----------5--3--|--
B|-----------------|--
G|-----------------|--
D|-----------------|--
A|--2--------------|--
E|--0--3--5--------|--



E|------------------------------------------|--
B|------------------------------------------|--
G|--8----8--7--6----6--5--4----3----2----0--|--
D|--9----9--8--7----7--6--5----4----3----1--|--
A|--9----9--8--7----7--6--5----4----3----1--|--
E|--7----7--6--5----5--4--3----2----1----0--|--
http://www.guitartabcreator.com
Guitar Tab Creator is intended to store guitar tab created through the tool. It currently does not support in-line text editing. Any text you place in here will be lost. If you need to comment on your tab, please use the "Tab Notes" section located below.