Rhubarb

(/) Slide Up  (\) Slide Down  (h) Hammer On  (p) Pull Off  (b) Bend (r) Release (v) Vibrato


E|--------------------------------------
B|--------------------------------------
G|----12----12----12----12----10------9-
D|-12----12----12----12----12------12---
A|--------------------------------------
E|--------------------------------------



E|-------------------------------
B|-------------------------------
G|-------------------------------
D|-------------------------------
A|---10---10---10---10---8-----7-
E|-7----7----7----7----7-----7---



E|-
B|-
G|-
D|-
A|-
E|-



E|---
B|---
G|---
D|---
A|---
E|---



E|------------------------------------------
B|------------------------------------------
G|-5p2p0h2--h5p2p0h2--h5p2p0h2--h5p2p0h2----
D|------------------------------------------
A|------------------------------------------
E|------------------------------------------



E|---------------------------------------
B|---------------------------------------
G|-7p4p0h4--h7p4p0h4--h7p4p0h4--h7p4p0h4-
D|---------------------------------------
A|---------------------------------------
E|---------------------------------------



E|---------------------------------------
B|---------------------------------------
G|-9p5p0h5--h9p5p0h5--h9p5p0h5--h9p5p0h5-
D|---------------------------------------
A|---------------------------------------
E|---------------------------------------



E|--------------------------------------------
B|--------------------------------------------
G|-10p7p0h7--h10p7p0h7--h10p7p0h7--h10p7p0h7--
D|--------------------------------------------
A|--------------------------------------------
E|--------------------------------------------



E|-------------------------------------------
B|-------------------------------------------
G|-12p9p0h9--h12p9p0h9--h12p9p0h9--h12p9p0h9-
D|-------------------------------------------
A|-------------------------------------------
E|-------------------------------------------



E|---------------------------------------
B|-9p7p0h7--h9p7p0h7--h9p7p0h7--h9p7p0h7-
G|---------------------------------------
D|---------------------------------------
A|---------------------------------------
E|---------------------------------------



E|-----------------------------------------------------12-
B|-11p9p0h9--h11p9p0h9--h11p9p0h9--h11p9p0h9---v-12----12-
G|-----------------------------------------------------12-
D|--------------------------------------------------------
A|--------------------------------------------------------
E|--------------------------------------------------------
http://www.guitartabcreator.com
Guitar Tab Creator is intended to store guitar tab created through the tool. It currently does not support in-line text editing. Any text you place in here will be lost. If you need to comment on your tab, please use the "Tab Notes" section located below.