Please (Remember Your Manners)

(/) Slide Up  (\) Slide Down  (h) Hammer On  (p) Pull Off  (b) Bend (r) Release (v) Vibrato


E|---------------------------------------------------------
B|---------------------------------------------------------
G|-----------9-------------9-------------9-------------11--
D|-----11--------------11------------11------------11------
A|--0---------------0-------------0-------------0----------
E|---------------------------------------------------------



E|------------------------------------------------------9------
B|------------------------10----------------------------10-----
G|--9--7--6----------6------------9--7--6----------6-----------
D|-------------------------------------------------------------
A|-------------7--9--------------------------7--9--------------
E|-------------------------------------------------------------



E|------------------------------------------------------------------
B|---------------------------h10---------------------------------10-
G|-11p9p6--h9p7p6-------------------h11p9p6--9p7p6------------------
D|---------------h7---h7h9/11-----------------------h7---h7h9/11----
A|------------------------------------------------------------------
E|------------------------------------------------------------------



E|-------------------------------------------------------------------------------------------------
B|-------------------------------------------------------------------------------------10--10--10--
G|--9--7--6----------6------9--7--6----------6----9--7--6----------6------9--7--6------6---6---6---
D|-------------7--9--------------------7--9------------------7--9----------------------7---7---7---
A|-------------------------------------------------------------------------------------------------
E|-------------------------------------------------------------------------------------------------
http://www.guitartabcreator.com
Guitar Tab Creator is intended to store guitar tab created through the tool. It currently does not support in-line text editing. Any text you place in here will be lost. If you need to comment on your tab, please use the "Tab Notes" section located below.