Luke Sends Postcards

(/) Slide Up  (\) Slide Down  (h) Hammer On  (p) Pull Off  (b) Bend (r) Release (v) Vibrato

(W|WW) Whole (H|HH) Half (Q|QQ) Quarter (E|EE) 8th (S|SS) 16th (T|TT) 32nd (X|XX) 64th


E|--11---------11----11--------11----13--11-----
B|----------9---------------9-------------------
G|------11---------------9-------------------9--
D|----------------------------------------------
A|----------------------------------------------
E|----------------------------------------------



E|----------------------------------------------------------------------------------------
B|----------------------------------------------------------------------------------------
G|----------------------------------11----11--11--11--11--12--12--12--12--11--11--11--11--
D|--11------11--11--11--11--11------11----11--11--11--11--11--11--11--11--11--11--11--11--
A|--11------11--11--11--11--11------9-----9---9---9---9---9---9---9---9---9---9---9---9---
E|--9-------9---9---9---9---9-------11----11--11--11--11--11--11--11--11--11--11--11--11--



E|---------------------------------------------------------------------------------------------------
B|---------------------------------------------------------------------------------------------------
G|---------------------------------------------------11-11-11-11-11-11-11-11-12-12-12-12-11-11-11-11-
D|-11-11-11-11-11-11-11-11-11-11-11-11-11-11-11-11---11-11-11-11-11-11-11-11-11-11-11-11-11-11-11-11-
A|-11-11-11-11-11-11-11-11-11-11-11-11-11-11-11-11---9--9--9--9--9--9--9--9--9--9--9--9--9--9--9--9--
E|-9--9--9--9--9--9--9--9--9--9--9--9--9--9--9--9----11-11-11-11-11-11-11-11-11-11-11-11-11-11-11-11-



E|-------------------------------
B|-------------------------------
G|--------------11--11-11--12-11-
D|-11--11-11----11--11-11--11-11-
A|-11--11-11----9---9--9---9--9--
E|-9---9--9-----11--11-11--11-11-


t: nonenone nonenone nonenone nonenone nonenone nonenone none nonenone none nonenone nonenone nonenone nonenone nonenone none nonenone none none nonenone nonenone nonenone nonenone nonenone nonenone none nonenone none nonenone nonenone nonenone nonenone nonenone none nonenone
E|---------------------------------------------------------------------------------------
B|---------------------------------------------------------------------------------------
G|---------------------------------------------11-11-11-11-11-11--11--11-11-11-11-11--11-
D|-11-11-11-11-11-11--11--11-11-11-11-11--11---11-11-11-11-11-11--11--11-11-11-11-11--11-
A|-11-11-11-11-11-11--11--11-11-11-11-11--11---9--9--9--9--9--9---9---9--9--9--9--9---9--
E|-9--9--9--9--9--9---9---9--9--9--9--9---9----11-11-11-11-11-11--11--11-11-11-11-11--11-
http://www.guitartabcreator.com
Guitar Tab Creator is intended to store guitar tab created through the tool. It currently does not support in-line text editing. Any text you place in here will be lost. If you need to comment on your tab, please use the "Tab Notes" section located below.