Rachmaninoff's Prelude in G minor Op. 23, No. 5

(/) Slide Up  (\) Slide Down  (h) Hammer On  (p) Pull Off  (b) Bend (r) Release (v) Vibrato


E|--------------------|---------------------|---------------6-6-6-----|---10-10-10--------15-15-15---
B|---3-3-3-----3----3-|---3-3-3-------3---3-|---3-3-3-------8-8-8-----|---11-11-11--------13-13-13---
G|---3-3-3-----3----3-|---3-3-3-------3---3-|---3-3-3-----------------|------------------------------
D|-----------0--------|-------------0-------|-------------5---------0-|--------------0---------------
A|---------1------1---|---------0-1-----1---|---------5-8-------------|-8----------------------------
E|-5------------------|-5-------------------|-5-------------------8---|------------8---13------------



E|-------14-14-14-----0---0-|---10-10-10-------0---0-|-
B|--------------------3-----|------------------3-----|-
G|-------14-14-14-----0---7-|---11-11-11-------0---7-|-
D|-----0------------------8-|----------------------8-|-
A|---0--------------1-------|--------------0-1-------|-
E|-5--------------4-----5---|-0----------4-------5---|-
http://www.guitartabcreator.com
Guitar Tab Creator is intended to store guitar tab created through the tool. It currently does not support in-line text editing. Any text you place in here will be lost. If you need to comment on your tab, please use the "Tab Notes" section located below.