Rachmaninoff's Prelude in C# minor Op. 3, No. 2

(/) Slide Up  (\) Slide Down  (h) Hammer On  (p) Pull Off  (b) Bend (r) Release (v) Vibrato

E|-----------|--0--3--2-----1--------|-----0--3--2-----1--------|-----0--7--5-----3-----2--|--
B|-----------|--------------------4--|-----------------------4--|-----------------1-----1--|--
G|-----------|--0--4--3-----2-----2--|-----0--4--3-----2-----2--|-----0--7--5--------------|--
D|-----------|-----------------------|--------------------------|--------------1-----0-----|--
A|--3--2-----|-----------3-----2-----|--------------3-----2-----|--------------------------|--
E|--------0--|-----------------------|--0-----------------------|--0-----------------------|--



E|-----3--10--8-----7-----6--|-----7--8------7------------|------------------0--2-----|--
B|------------------5-----5--|-----------10-----8--10--7--|--8--8--10--7--8--------4--|--
G|-----4--11--9--------------|-----7--9------7------------|------------------0--2-----|--
D|---------------5-----4-----|-----------10-----9--10--7--|--9--9--10--7--9--------4--|--
A|---------------------------|----------------------------|---------------------------|--
E|--3------------------------|--7-------------------------|---------------------------|--



E|--0--3--2-----1--------|-----0--7--5-----3--------|-----0--1-----0--------------|--
B|--------------------4--|-----------------1-----4--|-----------3-----1--3--0--1--|--
G|--0--4--3-----2-----2--|-----0--7--5-----------2--|-----0--2-----0--------------|--
D|-----------------------|--------------1-----------|-----------3-----2--3--0--2--|--
A|-----------3-----2-----|--------------------2-----|-----------------------------|--
E|-----------------------|--0-----------------------|--0--------------------------|--



E|-----0-----------------|-----0--3--2-----1--------|-----0--3--2-----1--------|-----
B|--1-----3-----1-----4--|-----0-----------------4--|-----0-----------------4--|-----
G|-----0--------------2--|-----0--4--3-----2-----2--|-----0--4--3-----2-----2--|-----
D|--2-----3-----2-----4--|--2-----0--------------4--|--2-----0--------------4--|-----
A|-----------1-----2-----|-----------4--3-----2-----|-----------4--3-----2-----|-----
E|-----------------------|--0-----------------------|--0-----------------------|-----
http://www.guitartabcreator.com
Guitar Tab Creator is intended to store guitar tab created through the tool. It currently does not support in-line text editing. Any text you place in here will be lost. If you need to comment on your tab, please use the "Tab Notes" section located below.