Acoustic Song

(/) Slide Up  (\) Slide Down  (h) Hammer On  (p) Pull Off  (b) Bend (r) Release (v) Vibrato  (*) Natural harmonic


E|------------------------------------------------------------------------------
B|------------------------------------------------------------------------------
G|------------------------------------------------------------------------------
D|------------------------------------------------------------------------------
A|--7-----9-----10-----7-----9-----10-----7-----9-----10-----7-----9-----10-----
E|--0--0-----0------0--0--0-----0------0--0--0-----0------0--0--0-----0------0--



E|------------------------------------------------------------------------------
B|------------------------------------------------------------------------------
G|------------------------------------------------------------------------------
D|------------------------------------------------------------------------------
A|--7-----9-----10-----7-----9-----10-----7-----9-----10-----7-----9-----10-----
E|--8--8-----8------8--8--8-----8------8--8--8-----8------8--8--8-----8------8--



E|------------------------------------------------------------------------------
B|------------------------------------------------------------------------------
G|------------------------------------------------------------------------------
D|-----------------------------------------------------------------------9------
A|--7-----9-----10-----7-----9-----10-----7-----9-----10-----7-----9------------
E|--0--0-----0------0--0--0-----0------0--0--0-----0------0--0--0-----0------0--



E|------------------------------------------------------------------------------
B|------------------------------------------------------------------------------
G|------------------------------------------------------------------------------
D|------------------------------------------------------------------------------
A|--7-----9-----10-----7-----9-----10-----7-----9-----10-----7------\-----------
E|--8--8-----8------8--8--8-----8------8--8--8-----8------8--8------\-----------

__________________________________________________________________________________

E|--------------------------------------------------0-----
B|-----------------------------------------------0--------
G|--------------------------------4h5p4-----4h5-----------
D|--2--2h4p2-----2h4/5p4-----4h5---------5----------------
A|--2---------3-----------5-------------------------------
E|--0-----------------------------------------------------



E|--------------------------------------------------0--
B|-----------------------------------------------0-----
G|--------------------------------4h5p4-----4h5--------
D|--2--2h4p2-----2h4/5p4-----4h5---------5-------------
A|--2---------3-----------5----------------------------
E|--0--------------------------------------------------



E|-------------------------------|--------------------------------
B|-------------------------------|---------------------------0----
G|-----------0-----------0-----0-|------------0--------2--0-----0-
D|--5--5--------5-----4-----4----|-0-4--4--------4----------------
A|--5-----5--------5-------------|---3-----3--------3-------------
E|--3----------------------------|---2----------------------------



E|--------------------------------------------------0-----
B|-----------------------------------------------0--------
G|--------------------------------4h5p4-----4h5-----------
D|--2--2h4p2-----2h4/5p4-----4h5---------5----------------
A|--2---------3-----------5-------------------------------
E|--0-----------------------------------------------------



E|--------------------------------------------------0--
B|-----------------------------------------------0-----
G|--------------------------------4h5p4-----4h5--------
D|--2--2h4p2-----2h4/5p4-----4h5---------5-------------
A|--2---------3-----------5----------------------------
E|--0--------------------------------------------------



E|-------------------------------|--------------------------------------
B|-------------------------------|--------------------------------------
G|-----------0-----------0-----0-|------------0--------/5--4-----5--4---
D|--5--5--------5-----4-----4----|-0-4--4--------4------------5--------5
A|--5-----5--------5-------------|---3-----3--------3-------------------
E|--3----------------------------|---2----------------------------------

__________________________________________________________________________________


E|-------------------|------------------|-------------------|----------------
B|-------------------|------------------|-------------------|----------------
G|-------------------|---------4h5p4----|-------------------|-------5--4-----
D|-------4-----4/5p4-|----4h5---------5-|----5-----5h7p5----|-7-----------5--
A|--2h3-----3--------|-5----------------|-7-----7---------5-|--5-------------
E|-------------------|------------------|-------------------|----------------



E|-------------------|------------------|-------------------|----------------
B|-------------------|------------------|-------------------|----------------
G|-------------------|---------4h5p4----|-------------------|-------12*------
D|-------4-----4/5p4-|----4h5---------5-|----5-----5h7p5----|-7-----12*------
A|--2h3-----3--------|-5----------------|-7-----7---------5-|--5-------------
E|-------------------|------------------|-------------------|----------------



E|-------------------|------------------|-------------------|----------------
B|-------------------|------------------|-------------------|----------------
G|-------------------|---------4h5p4----|-------------------|-------5--4-----
D|-------4-----4/5p4-|----4h5---------5-|----5-----5h7p5----|-7-----------5--
A|--2h3-----3--------|-5----------------|-7-----7---------5-|----5-----------
E|-------------------|------------------|-------------------|----------------



E|-------------------|------------------|-------------------|------------------
B|-------------------|------------------|-------------------|------------------
G|-------------------|---------4h5p4----|-------------------|------------------
D|-------4-----4/5p4-|----4h5---------5-|----5-----5h7p5----|-0--0--0----0--0--
A|--2h3-----3--------|-5----------------|-7-----7---------5-|-5--5--5\3--3--3--
E|-------------------|------------------|-------------------|------------------

_________________________________________________________________________________


E|---------|----------|----------|--------------------------
B|---------|----------|----------|--0--0--0--0--0--0--0--0--
G|--0------|--0--0----|--0--2----|--4--5--4--0--4--5--4--0--
D|--2------|--4--0----|--0--0----|--5--5--5--5--5--5--5--5-- x2
A|--2------|--3--3----|--2--2----|--3--3--3--3--3--3--3--3--
E|--0------|----------|--2--2----|--------------------------

__________________________________________________________________________________

E|----------------------------------
B|----------------------------------
G|--0--0--0--0--0--0--0--0----0--0--
D|--0--0--0--0--0--0--0--0----0--0--
A|--3--3--3--3--3--3--3--3/5--5--5--
E|----------------------------------



E|------------------------------------
B|------------------------------------
G|--0--0--0--0--0----0--0--0----0--0--
D|--0--0--0--0--4p0--0--0--0----0--0-- x2
A|--3--3--3--3--3----3--3--3/5--5--5--
E|------------------------------------

__________________________________________________________________________________


E|--3--------|--3----------|--0--------
B|--3--------|--3----------|--0--------
G|--0--------|--0----------|--0--------
D|--0--------|--0----------|--4--------
A|--2--------|--0----------|--2--------
E|--3--------|--2----------|--0--------

__________________________________________________________________________________


E|----------------------------------------------|-------------------------------------------5--
B|-----5-----5h7-----5-----5h7-----5-----5h7--8-|----7-----7h8-----7-----7h8-----7-----7h8-----
G|--7-----7-------7-----7-------7-----7---------|-5-----5-------5-----5-------5-----5----------
D|----------------------------------------------|----------------------------------------------
A|----------------------------------------------|----------------------------------------------
E|----------------------------------------------|----------------------------------------------



E|-----------------------------------------------
B|-----5-----5h7-----5-----5h7-----5-----5h7--8--
G|--7-----7-------7-----7-------7-----7----------
D|-----------------------------------------------
A|-----------------------------------------------
E|-----------------------------------------------



E|--------------------------------------|-8-7-5--------
B|-----7-----7h8-----7-----7h8-----7----|-------8-7-5--
G|--5-----5-------5-----5-------5-----5-|--------------
D|--------------------------------------|--------------
A|--------------------------------------|--------------
E|--------------------------------------|--------------



E|------------------------------------|---------------------------------5--
B|-----5-----5h7---------5-----5h7--8-|----7-----7h8---------7-----7h8-----
G|--7-----7-----------7-----7---------|-5-----5-----------5-----5----------
D|------------------------------------|------------------------------------
A|------------------------------------|------------------------------------
E|------------------------------------|------------------------------------



E|-------------------------------------|----------------------------
B|-----5-----5h7---------5-----5h7-----|----7-----7h8-----8v--v--v--
G|--7-----7-----------7-----7----------|-5-----5-------5------------
D|-------------------------------------|----------------------------
A|-------------------------------------|----------------------------
E|-------------------------------------|----------------------------
Guitar Tab Creator is intended to store guitar tab created through the tool. It currently does not support in-line text editing. Any text you place in here will be lost. If you need to comment on your tab, please use the "Tab Notes" section located below.