Little homemade riff

(/) Slide Up  (\) Slide Down  (h) Hammer On  (p) Pull Off  (b) Bend (r) Release (v) Vibrato

E|-----------------------------------------------
B|-----------------------------------------------
G|--------0--------0--------------0-----2-----0--
D|-----0-----0--4-----4--0-----2-----2-----2-----
A|-----------------------------------------------
E|--3-----------------------0--------------------



E|--------------------------------------------------
B|--------------------------------------------------
G|--------0-----4-----2-----0-----4--------0-----0--
D|-----0-----0-----0-----0-----0-----0--4-----4-----
A|--------------------------------------------------
E|--3-----------------------------------------------



E|-----------------------------------------
B|-----------------------------------------
G|--------4-----2--0-----------------0-----
D|-----0-----0--------0--4--------4-----2--
A|--------------------------5--5-----------
E|--3--------------------------------------



E|-----------------------------------------------
B|-----------------------------------------------
G|--------4-----2--0-----4-----4-----4--2--0-----
D|-----0-----0--------0-----0-----0-----------0--
A|-----------------------------------------------
E|--0--------------------------------------------
http://www.guitartabcreator.com
Guitar Tab Creator is intended to store guitar tab created through the tool. It currently does not support in-line text editing. Any text you place in here will be lost. If you need to comment on your tab, please use the "Tab Notes" section located below.