riff

[code]
(/) Slide Up (\) Slide Down (h) Hammer On (p) Pull Off (b) Bend (r) Release (v) Vibrato

Stave 1:

E|--------------------
B|--------------------
G|--------------------
D|--------------------
A|--2--2--3--2--2--3--
E|--0--0--1--0--0--1--

Stave 2:

E|--------------------
B|--------------------
G|--------------------
D|--------------------
A|--2--2--2--3--2-----
E|--0--0-----------3--

Stave 3:

E|----------------------
B|----------------------
G|----------------------
D|----------------------
A|----2--2--3--2--2--3--
E|----0--0--1--0--0--1--

Stave 4:

E|-----------------
B|-----------------
G|-----------------
D|-----------------
A|--2--2--2--3--2--
E|--0--0-----------

[/code]
[url]http://www.guitartabcreator.com[/url]
Guitar Tab Creator is intended to store guitar tab created through the tool. It currently does not support in-line text editing. Any text you place in here will be lost. If you need to comment on your tab, please use the "Tab Notes" section located below.