?

[code]
(/) Slide Up (\) Slide Down (h) Hammer On (p) Pull Off (b) Bend (r) Release (v) Vibrato


E|-----------------------------
B|-----------------------------
G|-----------------------------
D|-----------------5-----------
A|--7--7--7--5--7-----7--5--7--
E|--5--------------------------



E|--------------------
B|--------------------
G|--------------------
D|--------------5-----
A|--7--7--5--7-----7--
E|--------------------



E|-----------------------------
B|-----------------------------
G|-----------------5-----------
D|--7--7--7--5--7-----7--5--7--
A|--5--------------------------
E|-----------------------------



E|--------------------
B|--------------------
G|--------------5-----
D|--7--7--5--7-----7--
A|--------------------
E|--------------------
[/code]
[url]http://www.guitartabcreator.com[/url]
Guitar Tab Creator is intended to store guitar tab created through the tool. It currently does not support in-line text editing. Any text you place in here will be lost. If you need to comment on your tab, please use the "Tab Notes" section located below.